ACCORDI CHITARRA: CCCP

|A |B|C|D|E|F|G|H|I|J|K|L|M|N|O|P|Q|R|S|T|U|V|W|X|Y|Z|

    

PER ME LO SO

Intro: Mi (022xxx) Fa#m (133xxx) La (577xxx) Si (799xxx) Fa#m
(133xxx)
(Per tutta la canzone accordi a 3 corde)

Mi Fa#m
Conforme a chi conforme a cosa
La Si Fa#m
Conforme a quale strana posa
Mi Fa#m La Si Fa#m
Va peggio va meglio non so dire non lo so

Mi Fa#m La Mi

Mi Fa#m La Mi
Mi Fa#m La Mi

Mi Fa#m La Mi
La prima volta fa sempre male
Mi Fa#m La Mi
La prima volta ti fa tremare
Mi La Si Mi
Sei tu sei tu sei tu chi può darti di piu'
Mi La Si Mi
Sei tu sei tu sei tu chi può darti di piu'

Mi Fa#m La Mi
Mi Fa#m La Mi
Mi Fa#m La Mi
La terza volta ti fa pensare
Mi Fa#m La Mi
La quarta volta stai a guardare
Mi La Si Mi
Sei tu sei tu sei tu chi può darti di piu'
Mi La Si Mi
Sei tu sei tu sei tu chi può darti di piu'

Mi Fa# m La Mi
Mi Fa# m La Mi

Mi Fa#m
Un eterno presente che capire non sai
La Mi
L'ultima volta non arriva mai
Mi Fa#m
L'ultima volta non arriva mai
La Mi
In questo presente che capire non sai
Mi La Si Mi (accordi stoppati)
Sei tu sei tu sei tu chi può darti di piu'
Mi La Si Mi
Sei tu sei tu sei tu chi può darti di piu'
Mi La Si Mi
Sei tu sei tu sei tu chi può darti di piu'
Mi La Si Mi
Sei tu sei tu sei tu chi può darti di piu'

 

 

CCCP
Per me lo so

|----------------------|---------------------|
|----------------------|---------------------|
|:---------------------|---------------------|
|:-----2---------2-----|-----4---------4-----|
|------2---------2-----|-----4---------4-----|
|-0-0-----0-0-0-----0--|-2-2----2-2-2-----2--|

|----------------------|---------------------|
|----------------------|---------------------|
|----------------------|--------------------:|
|------7---------7-----|-----6---------4----:|
|------7---------7-----|-----6---------4-----|
|-5-5-----5-5-5-----5--|-4-4----4-2-2-----2--|

Gli accordi poi sono ..:

Mi Fa# La Mi

|-0-| |-0-| |-0-| |-0-|
|-0-| |-0-| |-0-| |-0-|
|-0-| |-0-| |-0-| |-0-|
|-2-| |-4-| |-7-| |-2-|
|-2-| |-4-| |-7-| |-2-|
|-0-| |-2-| |-5-| |-0-|

Cambia solo nel ritornello (Sei tu, sei tu...) e fa ..:

Mi La Si Mi

|-0-| |-0-| |-0-| |-0-|
|-0-| |-0-| |-0-| |-0-|
|-0-| |-0-| |-0-| |-0-|
|-2-| |-7-| |-9-| |-2-|
|-2-| |-7-| |-9-| |-2-|
|-0-| |-5-| |-7-| |-0-|

A parte l'inizio tutto il pezzo è suonato con 2 chitarre,
una distorta che batte tutte pennate in giù e una con suono
pulito che segue la ritmica della canzone (G G S S G S).
Nelle ultime 5 strofe rimane solo la chitarra distorta.

Torna indietro